ISO-10303-21;
HEADER;
FILE_DESCRIPTION (( 'STEP AP203' ),
    '1' );
FILE_NAME ('Q-QZWP-R4-20-980-M.STEP',
    '2020-12-23T01:26:42',
    ( '' ),
    ( '' ),
    'SwSTEP 2.0',
    'SolidWorks 2020',
    '' );
FILE_SCHEMA (( 'CONFIG_CONTROL_DESIGN' ));
ENDSEC;

DATA;
#1 = ORIENTED_EDGE ( 'NONE', *, *, #141, .F. ) ;
#2 = DIRECTION ( 'NONE',  ( 0.000000000000000000, 0.000000000000000000, -1.000000000000000000 ) ) ;
#3 = AXIS2_PLACEMENT_3D ( 'NONE', #63, #268, #304 ) ;
#4 = AXIS2_PLACEMENT_3D ( 'NONE', #158, #159, #100 ) ;
#5 = CARTESIAN_POINT ( 'NONE',  ( -3.000000000000000000, 0.000000000000000000, 0.000000000000000000 ) ) ;
#6 = DIRECTION ( 'NONE',  ( -1.000000000000000000, -0.000000000000000000, -0.000000000000000000 ) ) ;
#7 = EDGE_LOOP ( 'NONE', ( #166, #112 ) ) ;
#8 = ORIENTED_EDGE ( 'NONE', *, *, #79, .T. ) ;
#9 = DIRECTION ( 'NONE',  ( 0.000000000000000000, 0.000000000000000000, 1.000000000000000000 ) ) ;
#10 = VERTEX_POINT ( 'NONE', #273 ) ;
#11 = ORIENTED_EDGE ( 'NONE', *, *, #141, .T. ) ;
#12 = CC_DESIGN_APPROVAL ( #137, ( #55 ) ) ;
#13 = ADVANCED_FACE ( 'NONE', ( #83 ), #288, .F. ) ;
#14 = ORIENTED_EDGE ( 'NONE', *, *, #38, .T. ) ;
#15 = ORIENTED_EDGE ( 'NONE', *, *, #170, .T. ) ;
#16 = DATE_TIME_ROLE ( 'creation_date' ) ;
#17 = DIRECTION ( 'NONE',  ( -0.000000000000000000, 0.000000000000000000, 1.000000000000000000 ) ) ;
#18 = COORDINATED_UNIVERSAL_TIME_OFFSET ( 8, 0, .AHEAD. ) ;
#19 = CARTESIAN_POINT ( 'NONE',  ( 2.999999999999999112, 1.224646799147353256E-15, -10.00000000000000000 ) ) ;
#20 = CYLINDRICAL_SURFACE ( 'NONE', #231, 10.00000000000000000 ) ;
#21 = DIRECTION ( 'NONE',  ( -1.000000000000000000, -0.000000000000000000, -0.000000000000000000 ) ) ;
#22 = DIRECTION ( 'NONE',  ( -1.000000000000000000, -0.000000000000000000, -0.000000000000000000 ) ) ;
#23 = CIRCLE ( 'NONE', #177, 15.00000000000000000 ) ;
#24 = CARTESIAN_POINT ( 'NONE',  ( -3.000000000000000000, 10.00000000000000000, 0.000000000000000000 ) ) ;
#25 = PLANE ( 'NONE',  #252 ) ;
#26 = CALENDAR_DATE ( 2020, 23, 12 ) ;
#27 = DIRECTION ( 'NONE',  ( -1.000000000000000000, -0.000000000000000000, -0.000000000000000000 ) ) ;
#28 = ORIENTED_EDGE ( 'NONE', *, *, #265, .F. ) ;
#29 = AXIS2_PLACEMENT_3D ( 'NONE', #5, #81, #53 ) ;
#30 = EDGE_CURVE ( 'NONE', #140, #139, #147, .T. ) ;
#31 = CYLINDRICAL_SURFACE ( 'NONE', #73, 15.00000000000000000 ) ;
#32 = DIRECTION ( 'NONE',  ( 0.000000000000000000, 0.000000000000000000, 1.000000000000000000 ) ) ;
#33 = PRODUCT_DEFINITION_SHAPE ( 'NONE', 'NONE',  #97 ) ;
#34 = CIRCLE ( 'NONE', #271, 10.00000000000000000 ) ;
#35 = ORIENTED_EDGE ( 'NONE', *, *, #44, .F. ) ;
#36 = VERTEX_POINT ( 'NONE', #253 ) ;
#37 = EDGE_LOOP ( 'NONE', ( #315, #194, #15, #42 ) ) ;
#38 = EDGE_CURVE ( 'NONE', #193, #172, #74, .T. ) ;
#39 = EDGE_LOOP ( 'NONE', ( #267, #65, #272, #118 ) ) ;
#40 = ADVANCED_BREP_SHAPE_REPRESENTATION ( 'Q-QZWP-R4-20-980-M', ( #153, #58 ), #295 ) ;
#41 = APPROVAL_STATUS ( 'not_yet_approved' ) ;
#42 = ORIENTED_EDGE ( 'NONE', *, *, #87, .T. ) ;
#43 = CARTESIAN_POINT ( 'NONE',  ( -2.500000000000000444, 0.000000000000000000, 0.000000000000000000 ) ) ;
#44 = EDGE_CURVE ( 'NONE', #213, #293, #45, .T. ) ;
#45 = CIRCLE ( 'NONE', #131, 10.00000000000000000 ) ;
#46 = CARTESIAN_POINT ( 'NONE',  ( -1.614212418857619014, 1.224646799147353256E-15, -10.00000000000000000 ) ) ;
#47 = CC_DESIGN_APPROVAL ( #164, ( #97 ) ) ;
#48 = DIRECTION ( 'NONE',  ( -1.000000000000000000, -0.000000000000000000, -0.000000000000000000 ) ) ;
#49 = ADVANCED_FACE ( 'NONE', ( #254, #201 ), #50, .F. ) ;
#50 = PLANE ( 'NONE',  #320 ) ;
#51 = SECURITY_CLASSIFICATION_LEVEL ( 'unclassified' ) ;
#52 = CLOSED_SHELL ( 'NONE', ( #243, #230, #13, #101, #91, #318, #216, #260, #49, #223 ) ) ;
#53 = DIRECTION ( 'NONE',  ( 0.000000000000000000, 0.000000000000000000, 1.000000000000000000 ) ) ;
#54 = PRODUCT_RELATED_PRODUCT_CATEGORY ( 'detail', '', ( #60 ) ) ;
#55 = SECURITY_CLASSIFICATION ( '', '', #51 ) ;
#56 = FACE_OUTER_BOUND ( 'NONE', #143, .T. ) ;
#57 = DIRECTION ( 'NONE',  ( 1.000000000000000000, 0.000000000000000000, 0.000000000000000000 ) ) ;
#58 = AXIS2_PLACEMENT_3D ( 'NONE', #61, #9, #192 ) ;
#59 = FACE_OUTER_BOUND ( 'NONE', #39, .T. ) ;
#60 = PRODUCT ( 'Q-QZWP-R4-20-980-M', 'Q-QZWP-R4-20-980-M', '', ( #111 ) ) ;
#61 = CARTESIAN_POINT ( 'NONE',  ( 0.000000000000000000, 0.000000000000000000, 0.000000000000000000 ) ) ;
#62 = CARTESIAN_POINT ( 'NONE',  ( -1.614212418857619014, 0.000000000000000000, 0.000000000000000000 ) ) ;
#63 = CARTESIAN_POINT ( 'NONE',  ( -3.000000000000000444, 0.000000000000000000, 0.000000000000000000 ) ) ;
#64 = ORIENTED_EDGE ( 'NONE', *, *, #289, .T. ) ;
#65 = ORIENTED_EDGE ( 'NONE', *, *, #173, .T. ) ;
#66 = PERSON_AND_ORGANIZATION ( #324, #303 ) ;
#67 = AXIS2_PLACEMENT_3D ( 'NONE', #209, #27, #208 ) ;
#68 = ORIENTED_EDGE ( 'NONE', *, *, #331, .T. ) ;
#69 = CARTESIAN_POINT ( 'NONE',  ( 2.500000000000000888, 0.000000000000000000, 10.00000000000000000 ) ) ;
#70 = APPROVAL_ROLE ( '' ) ;
#71 = DIRECTION ( 'NONE',  ( 1.000000000000000000, 0.000000000000000000, 0.000000000000000000 ) ) ;
#72 = LINE ( 'NONE', #297, #321 ) ;
#73 = AXIS2_PLACEMENT_3D ( 'NONE', #104, #6, #284 ) ;
#74 = LINE ( 'NONE', #46, #190 ) ;
#75 = CARTESIAN_POINT ( 'NONE',  ( -3.000000000000000000, 0.000000000000000000, 0.000000000000000000 ) ) ;
#76 = PERSON_AND_ORGANIZATION_ROLE ( 'classification_officer' ) ;
#77 = DIRECTION ( 'NONE',  ( 0.000000000000000000, 0.000000000000000000, 1.000000000000000000 ) ) ;
#78 = PERSON_AND_ORGANIZATION_ROLE ( 'creator' ) ;
#79 = EDGE_CURVE ( 'NONE', #172, #191, #114, .T. ) ;
#80 = CARTESIAN_POINT ( 'NONE',  ( -3.000000000000000000, 0.000000000000000000, 15.00000000000000000 ) ) ;
#81 = DIRECTION ( 'NONE',  ( -1.000000000000000000, -0.000000000000000000, -0.000000000000000000 ) ) ;
#82 = CARTESIAN_POINT ( 'NONE',  ( 2.999999999999999112, 0.000000000000000000, 0.000000000000000000 ) ) ;
#83 = FACE_OUTER_BOUND ( 'NONE', #242, .T. ) ;
#84 = ORIENTED_EDGE ( 'NONE', *, *, #232, .F. ) ;
#85 = CIRCLE ( 'NONE', #180, 10.00000000000000000 ) ;
#86 = ORIENTED_EDGE ( 'NONE', *, *, #255, .F. ) ;
#87 = EDGE_CURVE ( 'NONE', #191, #172, #34, .T. ) ;
#88 = APPROVAL_ROLE ( '' ) ;
#89 = ORIENTED_EDGE ( 'NONE', *, *, #173, .F. ) ;
#90 = EDGE_LOOP ( 'NONE', ( #323, #113 ) ) ;
#91 = ADVANCED_FACE ( 'NONE', ( #226 ), #20, .F. ) ;
#92 = DATE_AND_TIME ( #99, #218 ) ;
#93 = LOCAL_TIME ( 9, 26, 42.00000000000000000, #18 ) ;
#94 = DIRECTION ( 'NONE',  ( 0.000000000000000000, 0.000000000000000000, 1.000000000000000000 ) ) ;
#95 = CARTESIAN_POINT ( 'NONE',  ( -1.614212418857619014, 0.000000000000000000, 0.000000000000000000 ) ) ;
#96 = AXIS2_PLACEMENT_3D ( 'NONE', #62, #163, #240 ) ;
#97 = PRODUCT_DEFINITION ( 'UNKNOWN', '', #245, #279 ) ;
#98 = CARTESIAN_POINT ( 'NONE',  ( 2.500000000000000888, 1.224646799147353256E-15, -10.00000000000000000 ) ) ;
#99 = CALENDAR_DATE ( 2020, 23, 12 ) ;
#100 = DIRECTION ( 'NONE',  ( 0.000000000000000000, 0.000000000000000000, 1.000000000000000000 ) ) ;
#101 = ADVANCED_FACE ( 'NONE', ( #124 ), #222, .F. ) ;
#102 = CARTESIAN_POINT ( 'NONE',  ( -2.500000000000000444, 10.00000000000000000, 0.000000000000000000 ) ) ;
#103 = AXIS2_PLACEMENT_3D ( 'NONE', #136, #107, #181 ) ;
#104 = CARTESIAN_POINT ( 'NONE',  ( -1.614212418857619014, 0.000000000000000000, 0.000000000000000000 ) ) ;
#105 = PLANE ( 'NONE',  #286 ) ;
#106 = EDGE_CURVE ( 'NONE', #269, #319, #305, .T. ) ;
#107 = DIRECTION ( 'NONE',  ( -1.000000000000000000, -0.000000000000000000, -0.000000000000000000 ) ) ;
#108 = ORIENTED_EDGE ( 'NONE', *, *, #188, .T. ) ;
#109 = AXIS2_PLACEMENT_3D ( 'NONE', #237, #264, #32 ) ;
#110 = CC_DESIGN_PERSON_AND_ORGANIZATION_ASSIGNMENT ( #328, #229, ( #245 ) ) ;
#111 = MECHANICAL_CONTEXT ( 'NONE', #241, 'mechanical' ) ;
#112 = ORIENTED_EDGE ( 'NONE', *, *, #79, .F. ) ;
#113 = ORIENTED_EDGE ( 'NONE', *, *, #255, .T. ) ;
#114 = CIRCLE ( 'NONE', #285, 10.00000000000000000 ) ;
#115 = CC_DESIGN_SECURITY_CLASSIFICATION ( #55, ( #245 ) ) ;
#116 = APPROVAL_PERSON_ORGANIZATION ( #198, #137, #70 ) ;
#117 = APPROVAL_STATUS ( 'not_yet_approved' ) ;
#118 = ORIENTED_EDGE ( 'NONE', *, *, #30, .T. ) ;
#119 = ORIENTED_EDGE ( 'NONE', *, *, #265, .T. ) ;
#120 = APPROVAL_STATUS ( 'not_yet_approved' ) ;
#121 = DIRECTION ( 'NONE',  ( -1.000000000000000000, -0.000000000000000000, -0.000000000000000000 ) ) ;
#122 = VECTOR ( 'NONE', #311, 1000.000000000000000 ) ;
#123 = CARTESIAN_POINT ( 'NONE',  ( -2.500000000000000444, 0.000000000000000000, 10.00000000000000000 ) ) ;
#124 = FACE_OUTER_BOUND ( 'NONE', #7, .T. ) ;
#125 = CARTESIAN_POINT ( 'NONE',  ( 2.500000000000000888, 0.000000000000000000, 0.000000000000000000 ) ) ;
#126 = CC_DESIGN_DATE_AND_TIME_ASSIGNMENT ( #92, #171, ( #55 ) ) ;
#127 = CARTESIAN_POINT ( 'NONE',  ( -3.000000000000000444, 0.000000000000000000, 10.00000000000000000 ) ) ;
#128 = APPROVAL_DATE_TIME ( #250, #327 ) ;
#129 = CC_DESIGN_PERSON_AND_ORGANIZATION_ASSIGNMENT ( #200, #257, ( #245 ) ) ;
#130 = DIRECTION ( 'NONE',  ( 1.000000000000000000, 0.000000000000000000, 0.000000000000000000 ) ) ;
#131 = AXIS2_PLACEMENT_3D ( 'NONE', #256, #71, #280 ) ;
#132 = LINE ( 'NONE', #313, #122 ) ;
#133 = EDGE_LOOP ( 'NONE', ( #1, #167 ) ) ;
#134 = VECTOR ( 'NONE', #146, 1000.000000000000000 ) ;
#135 = CARTESIAN_POINT ( 'NONE',  ( -1.614212418857619014, 0.000000000000000000, 0.000000000000000000 ) ) ;
#136 = CARTESIAN_POINT ( 'NONE',  ( -3.000000000000000444, 0.000000000000000000, 0.000000000000000000 ) ) ;
#137 = APPROVAL ( #120, 'UNSPECIFIED' ) ;
#138 = AXIS2_PLACEMENT_3D ( 'NONE', #300, #48, #94 ) ;
#139 = VERTEX_POINT ( 'NONE', #202 ) ;
#140 = VERTEX_POINT ( 'NONE', #127 ) ;
#141 = EDGE_CURVE ( 'NONE', #269, #169, #238, .T. ) ;
#142 = APPLICATION_PROTOCOL_DEFINITION ( 'international standard', 'config_control_design', 1994, #310 ) ;
#143 = EDGE_LOOP ( 'NONE', ( #35, #89 ) ) ;
#144 = APPROVAL_DATE_TIME ( #205, #137 ) ;
#145 = DIRECTION ( 'NONE',  ( 1.000000000000000000, 0.000000000000000000, 0.000000000000000000 ) ) ;
#146 = DIRECTION ( 'NONE',  ( -1.000000000000000000, -0.000000000000000000, -0.000000000000000000 ) ) ;
#147 = CIRCLE ( 'NONE', #3, 10.00000000000000000 ) ;
#148 = VECTOR ( 'NONE', #329, 1000.000000000000000 ) ;
#149 = AXIS2_PLACEMENT_3D ( 'NONE', #43, #145, #178 ) ;
#150 = DIRECTION ( 'NONE',  ( -1.000000000000000000, 0.000000000000000000, -0.000000000000000000 ) ) ;
#151 = CARTESIAN_POINT ( 'NONE',  ( 3.000000000000000000, 1.836970198721029589E-15, -15.00000000000000000 ) ) ;
#152 = DIRECTION ( 'NONE',  ( 0.000000000000000000, 0.000000000000000000, 1.000000000000000000 ) ) ;
#153 = MANIFOLD_SOLID_BREP ( 'Ðý×', #52 ) ;
#154 = CYLINDRICAL_SURFACE ( 'NONE', #266, 15.00000000000000000 ) ;
#155 = LOCAL_TIME ( 9, 26, 42.00000000000000000, #207 ) ;
#156 = CARTESIAN_POINT ( 'NONE',  ( 2.999999999999999112, 0.000000000000000000, 0.000000000000000000 ) ) ;
#157 = CC_DESIGN_PERSON_AND_ORGANIZATION_ASSIGNMENT ( #294, #76, ( #55 ) ) ;
#158 = CARTESIAN_POINT ( 'NONE',  ( -1.614212418857619014, 0.000000000000000000, 0.000000000000000000 ) ) ;
#159 = DIRECTION ( 'NONE',  ( -1.000000000000000000, -0.000000000000000000, -0.000000000000000000 ) ) ;
#160 = APPROVAL_PERSON_ORGANIZATION ( #214, #164, #88 ) ;
#161 = CYLINDRICAL_SURFACE ( 'NONE', #109, 10.00000000000000000 ) ;
#162 = APPLICATION_PROTOCOL_DEFINITION ( 'international standard', 'config_control_design', 1994, #241 ) ;
#163 = DIRECTION ( 'NONE',  ( -1.000000000000000000, -0.000000000000000000, -0.000000000000000000 ) ) ;
#164 = APPROVAL ( #117, 'UNSPECIFIED' ) ;
#165 = COORDINATED_UNIVERSAL_TIME_OFFSET ( 8, 0, .AHEAD. ) ;
#166 = ORIENTED_EDGE ( 'NONE', *, *, #87, .F. ) ;
#167 = ORIENTED_EDGE ( 'NONE', *, *, #289, .F. ) ;
#168 = PERSON_AND_ORGANIZATION_ROLE ( 'design_owner' ) ;
#169 = VERTEX_POINT ( 'NONE', #151 ) ;
#170 = EDGE_CURVE ( 'NONE', #36, #191, #72, .T. ) ;
#171 = DATE_TIME_ROLE ( 'classification_date' ) ;
#172 = VERTEX_POINT ( 'NONE', #98 ) ;
#173 = EDGE_CURVE ( 'NONE', #293, #213, #290, .T. ) ;
#174 = CARTESIAN_POINT ( 'NONE',  ( 2.500000000000000888, 0.000000000000000000, 0.000000000000000000 ) ) ;
#175 = CALENDAR_DATE ( 2020, 23, 12 ) ;
#176 = DIRECTION ( 'NONE',  ( -1.000000000000000000, -0.000000000000000000, -0.000000000000000000 ) ) ;
#177 = AXIS2_PLACEMENT_3D ( 'NONE', #75, #21, #333 ) ;
#178 = DIRECTION ( 'NONE',  ( 0.000000000000000000, 0.000000000000000000, -1.000000000000000000 ) ) ;
#179 =( LENGTH_UNIT ( ) NAMED_UNIT ( * ) SI_UNIT ( .MILLI., .METRE. ) );
#180 = AXIS2_PLACEMENT_3D ( 'NONE', #156, #184, #77 ) ;
#181 = DIRECTION ( 'NONE',  ( 0.000000000000000000, 0.000000000000000000, 1.000000000000000000 ) ) ;
#182 = ORIENTED_EDGE ( 'NONE', *, *, #106, .F. ) ;
#183 = FACE_OUTER_BOUND ( 'NONE', #239, .T. ) ;
#184 = DIRECTION ( 'NONE',  ( -1.000000000000000000, -0.000000000000000000, -0.000000000000000000 ) ) ;
#185 = EDGE_CURVE ( 'NONE', #319, #10, #23, .T. ) ;
#186 = CARTESIAN_POINT ( 'NONE',  ( -1.614212418857619014, 1.836970198721029589E-15, -15.00000000000000000 ) ) ;
#187 = ORIENTED_EDGE ( 'NONE', *, *, #232, .T. ) ;
#188 = EDGE_CURVE ( 'NONE', #293, #139, #199, .T. ) ;
#189 = CALENDAR_DATE ( 2020, 23, 12 ) ;
#190 = VECTOR ( 'NONE', #121, 1000.000000000000000 ) ;
#191 = VERTEX_POINT ( 'NONE', #69 ) ;
#192 = DIRECTION ( 'NONE',  ( 1.000000000000000000, 0.000000000000000000, 0.000000000000000000 ) ) ;
#193 = VERTEX_POINT ( 'NONE', #19 ) ;
#194 = ORIENTED_EDGE ( 'NONE', *, *, #316, .F. ) ;
#195 = CC_DESIGN_DATE_AND_TIME_ASSIGNMENT ( #221, #16, ( #97 ) ) ;
#196 = ORIENTED_EDGE ( 'NONE', *, *, #301, .F. ) ;
#197 = LOCAL_TIME ( 9, 26, 42.00000000000000000, #165 ) ;
#198 = PERSON_AND_ORGANIZATION ( #324, #303 ) ;
#199 = LINE ( 'NONE', #251, #134 ) ;
#200 = PERSON_AND_ORGANIZATION ( #324, #303 ) ;
#201 = FACE_BOUND ( 'NONE', #90, .T. ) ;
#202 = CARTESIAN_POINT ( 'NONE',  ( -3.000000000000000444, 1.224646799147353256E-15, -10.00000000000000000 ) ) ;
#203 = AXIS2_PLACEMENT_3D ( 'NONE', #82, #283, #206 ) ;
#204 = DIRECTION ( 'NONE',  ( -1.000000000000000000, 0.000000000000000000, -0.000000000000000000 ) ) ;
#205 = DATE_AND_TIME ( #175, #93 ) ;
#206 = DIRECTION ( 'NONE',  ( 0.000000000000000000, 0.000000000000000000, 1.000000000000000000 ) ) ;
#207 = COORDINATED_UNIVERSAL_TIME_OFFSET ( 8, 0, .AHEAD. ) ;
#208 = DIRECTION ( 'NONE',  ( 0.000000000000000000, 0.000000000000000000, 1.000000000000000000 ) ) ;
#209 = CARTESIAN_POINT ( 'NONE',  ( 3.000000000000000000, 0.000000000000000000, 0.000000000000000000 ) ) ;
#210 = DIRECTION ( 'NONE',  ( 0.000000000000000000, 0.000000000000000000, -1.000000000000000000 ) ) ;
#211 = VECTOR ( 'NONE', #261, 1000.000000000000000 ) ;
#212 = EDGE_LOOP ( 'NONE', ( #219, #108, #68, #196 ) ) ;
#213 = VERTEX_POINT ( 'NONE', #123 ) ;
#214 = PERSON_AND_ORGANIZATION ( #324, #303 ) ;
#215 = EDGE_LOOP ( 'NONE', ( #247, #291 ) ) ;
#216 = ADVANCED_FACE ( 'NONE', ( #224, #330 ), #105, .F. ) ;
#217 = ORIENTED_EDGE ( 'NONE', *, *, #185, .T. ) ;
#218 = LOCAL_TIME ( 9, 26, 42.00000000000000000, #275 ) ;
#219 = ORIENTED_EDGE ( 'NONE', *, *, #44, .T. ) ;
#220 = ORIENTED_EDGE ( 'NONE', *, *, #170, .F. ) ;
#221 = DATE_AND_TIME ( #26, #155 ) ;
#222 = PLANE ( 'NONE',  #302 ) ;
#223 = ADVANCED_FACE ( 'NONE', ( #56 ), #25, .F. ) ;
#224 = FACE_BOUND ( 'NONE', #215, .T. ) ;
#225 = CARTESIAN_POINT ( 'NONE',  ( 2.500000000000000444, 10.00000000000000000, 0.000000000000000000 ) ) ;
#226 = FACE_OUTER_BOUND ( 'NONE', #37, .T. ) ;
#227 = DIRECTION ( 'NONE',  ( -1.000000000000000000, -0.000000000000000000, -0.000000000000000000 ) ) ;
#228 = CYLINDRICAL_SURFACE ( 'NONE', #4, 10.00000000000000000 ) ;
#229 = PERSON_AND_ORGANIZATION_ROLE ( 'creator' ) ;
#230 = ADVANCED_FACE ( 'NONE', ( #287 ), #228, .F. ) ;
#231 = AXIS2_PLACEMENT_3D ( 'NONE', #95, #176, #299 ) ;
#232 = EDGE_CURVE ( 'NONE', #169, #10, #262, .T. ) ;
#233 = FACE_OUTER_BOUND ( 'NONE', #244, .T. ) ;
#234 = ORIENTED_EDGE ( 'NONE', *, *, #106, .T. ) ;
#235 = DIRECTION ( 'NONE',  ( -1.000000000000000000, -0.000000000000000000, -0.000000000000000000 ) ) ;
#236 = UNCERTAINTY_MEASURE_WITH_UNIT (LENGTH_MEASURE( 1.000000000000000082E-05 ), #179, 'distance_accuracy_value', 'NONE');
#237 = CARTESIAN_POINT ( 'NONE',  ( -1.614212418857619014, 0.000000000000000000, 0.000000000000000000 ) ) ;
#238 = CIRCLE ( 'NONE', #138, 15.00000000000000000 ) ;
#239 = EDGE_LOOP ( 'NONE', ( #11, #187, #326, #182 ) ) ;
#240 = DIRECTION ( 'NONE',  ( 0.000000000000000000, 0.000000000000000000, 1.000000000000000000 ) ) ;
#241 = APPLICATION_CONTEXT ( 'configuration controlled 3d designs of mechanical parts and assemblies' ) ;
#242 = EDGE_LOOP ( 'NONE', ( #86, #14, #8, #220 ) ) ;
#243 = ADVANCED_FACE ( 'NONE', ( #183 ), #31, .T. ) ;
#244 = EDGE_LOOP ( 'NONE', ( #84, #64, #234, #28 ) ) ;
#245 = PRODUCT_DEFINITION_FORMATION_WITH_SPECIFIED_SOURCE ( 'ANY', '', #60, .NOT_KNOWN. ) ;
#246 = PERSON_AND_ORGANIZATION ( #324, #303 ) ;
#247 = ORIENTED_EDGE ( 'NONE', *, *, #30, .F. ) ;
#248 = CALENDAR_DATE ( 2020, 23, 12 ) ;
#249 = DIRECTION ( 'NONE',  ( 0.000000000000000000, 0.000000000000000000, 1.000000000000000000 ) ) ;
#250 = DATE_AND_TIME ( #248, #334 ) ;
#251 = CARTESIAN_POINT ( 'NONE',  ( -1.614212418857619014, 1.224646799147353256E-15, -10.00000000000000000 ) ) ;
#252 = AXIS2_PLACEMENT_3D ( 'NONE', #102, #130, #2 ) ;
#253 = CARTESIAN_POINT ( 'NONE',  ( 2.999999999999999112, 0.000000000000000000, 10.00000000000000000 ) ) ;
#254 = FACE_OUTER_BOUND ( 'NONE', #133, .T. ) ;
#255 = EDGE_CURVE ( 'NONE', #193, #36, #258, .T. ) ;
#256 = CARTESIAN_POINT ( 'NONE',  ( -2.500000000000000444, 0.000000000000000000, 0.000000000000000000 ) ) ;
#257 = PERSON_AND_ORGANIZATION_ROLE ( 'design_supplier' ) ;
#258 = CIRCLE ( 'NONE', #203, 10.00000000000000000 ) ;
#259 = CARTESIAN_POINT ( 'NONE',  ( 3.000000000000000000, 0.000000000000000000, 15.00000000000000000 ) ) ;
#260 = ADVANCED_FACE ( 'NONE', ( #233 ), #154, .T. ) ;
#261 = DIRECTION ( 'NONE',  ( -1.000000000000000000, -0.000000000000000000, -0.000000000000000000 ) ) ;
#262 = LINE ( 'NONE', #186, #211 ) ;
#263 = CIRCLE ( 'NONE', #67, 15.00000000000000000 ) ;
#264 = DIRECTION ( 'NONE',  ( -1.000000000000000000, -0.000000000000000000, -0.000000000000000000 ) ) ;
#265 = EDGE_CURVE ( 'NONE', #10, #319, #276, .T. ) ;
#266 = AXIS2_PLACEMENT_3D ( 'NONE', #135, #235, #307 ) ;
#267 = ORIENTED_EDGE ( 'NONE', *, *, #188, .F. ) ;
#268 = DIRECTION ( 'NONE',  ( -1.000000000000000000, -0.000000000000000000, -0.000000000000000000 ) ) ;
#269 = VERTEX_POINT ( 'NONE', #259 ) ;
#270 = PERSON_AND_ORGANIZATION ( #324, #303 ) ;
#271 = AXIS2_PLACEMENT_3D ( 'NONE', #125, #22, #249 ) ;
#272 = ORIENTED_EDGE ( 'NONE', *, *, #301, .T. ) ;
#273 = CARTESIAN_POINT ( 'NONE',  ( -3.000000000000000000, 1.836970198721029589E-15, -15.00000000000000000 ) ) ;
#274 = CARTESIAN_POINT ( 'NONE',  ( 2.999999999999999112, 15.00000000000000000, 0.000000000000000000 ) ) ;
#275 = COORDINATED_UNIVERSAL_TIME_OFFSET ( 8, 0, .AHEAD. ) ;
#276 = CIRCLE ( 'NONE', #29, 15.00000000000000000 ) ;
#277 = CARTESIAN_POINT ( 'NONE',  ( -1.614212418857619014, 0.000000000000000000, 15.00000000000000000 ) ) ;
#278 = CC_DESIGN_PERSON_AND_ORGANIZATION_ASSIGNMENT ( #246, #168, ( #60 ) ) ;
#279 = DESIGN_CONTEXT ( 'detailed design', #310, 'design' ) ;
#280 = DIRECTION ( 'NONE',  ( 0.000000000000000000, 0.000000000000000000, -1.000000000000000000 ) ) ;
#281 = CC_DESIGN_APPROVAL ( #327, ( #245 ) ) ;
#282 =( NAMED_UNIT ( * ) PLANE_ANGLE_UNIT ( ) SI_UNIT ( $, .RADIAN. ) );
#283 = DIRECTION ( 'NONE',  ( -1.000000000000000000, -0.000000000000000000, -0.000000000000000000 ) ) ;
#284 = DIRECTION ( 'NONE',  ( 0.000000000000000000, 0.000000000000000000, 1.000000000000000000 ) ) ;
#285 = AXIS2_PLACEMENT_3D ( 'NONE', #174, #227, #152 ) ;
#286 = AXIS2_PLACEMENT_3D ( 'NONE', #24, #57, #210 ) ;
#287 = FACE_OUTER_BOUND ( 'NONE', #212, .T. ) ;
#288 = CYLINDRICAL_SURFACE ( 'NONE', #96, 10.00000000000000000 ) ;
#289 = EDGE_CURVE ( 'NONE', #169, #269, #263, .T. ) ;
#290 = CIRCLE ( 'NONE', #149, 10.00000000000000000 ) ;
#291 = ORIENTED_EDGE ( 'NONE', *, *, #331, .F. ) ;
#292 = APPROVAL_DATE_TIME ( #317, #164 ) ;
#293 = VERTEX_POINT ( 'NONE', #309 ) ;
#294 = PERSON_AND_ORGANIZATION ( #324, #303 ) ;
#295 =( GEOMETRIC_REPRESENTATION_CONTEXT ( 3 ) GLOBAL_UNCERTAINTY_ASSIGNED_CONTEXT ( ( #236 ) ) GLOBAL_UNIT_ASSIGNED_CONTEXT ( ( #179, #282, #314 ) ) REPRESENTATION_CONTEXT ( 'NONE', 'WORKASPACE' ) );
#296 = SHAPE_DEFINITION_REPRESENTATION ( #33, #40 ) ;
#297 = CARTESIAN_POINT ( 'NONE',  ( -1.614212418857619014, 0.000000000000000000, 10.00000000000000000 ) ) ;
#298 = APPROVAL_ROLE ( '' ) ;
#299 = DIRECTION ( 'NONE',  ( 0.000000000000000000, 0.000000000000000000, 1.000000000000000000 ) ) ;
#300 = CARTESIAN_POINT ( 'NONE',  ( 3.000000000000000000, 0.000000000000000000, 0.000000000000000000 ) ) ;
#301 = EDGE_CURVE ( 'NONE', #213, #140, #132, .T. ) ;
#302 = AXIS2_PLACEMENT_3D ( 'NONE', #225, #204, #332 ) ;
#303 = ORGANIZATION ( 'UNSPECIFIED', 'UNSPECIFIED', '' ) ;
#304 = DIRECTION ( 'NONE',  ( 0.000000000000000000, 0.000000000000000000, 1.000000000000000000 ) ) ;
#305 = LINE ( 'NONE', #277, #148 ) ;
#306 = COORDINATED_UNIVERSAL_TIME_OFFSET ( 8, 0, .AHEAD. ) ;
#307 = DIRECTION ( 'NONE',  ( 0.000000000000000000, 0.000000000000000000, 1.000000000000000000 ) ) ;
#308 = CIRCLE ( 'NONE', #103, 10.00000000000000000 ) ;
#309 = CARTESIAN_POINT ( 'NONE',  ( -2.500000000000000444, 1.224646799147353256E-15, -10.00000000000000000 ) ) ;
#310 = APPLICATION_CONTEXT ( 'configuration controlled 3d designs of mechanical parts and assemblies' ) ;
#311 = DIRECTION ( 'NONE',  ( -1.000000000000000000, -0.000000000000000000, -0.000000000000000000 ) ) ;
#312 = CC_DESIGN_PERSON_AND_ORGANIZATION_ASSIGNMENT ( #270, #78, ( #97 ) ) ;
#313 = CARTESIAN_POINT ( 'NONE',  ( -1.614212418857619014, 0.000000000000000000, 10.00000000000000000 ) ) ;
#314 =( NAMED_UNIT ( * ) SI_UNIT ( $, .STERADIAN. ) SOLID_ANGLE_UNIT ( ) );
#315 = ORIENTED_EDGE ( 'NONE', *, *, #38, .F. ) ;
#316 = EDGE_CURVE ( 'NONE', #36, #193, #85, .T. ) ;
#317 = DATE_AND_TIME ( #189, #197 ) ;
#318 = ADVANCED_FACE ( 'NONE', ( #59 ), #161, .F. ) ;
#319 = VERTEX_POINT ( 'NONE', #80 ) ;
#320 = AXIS2_PLACEMENT_3D ( 'NONE', #274, #150, #17 ) ;
#321 = VECTOR ( 'NONE', #335, 1000.000000000000000 ) ;
#322 = APPROVAL_PERSON_ORGANIZATION ( #66, #327, #298 ) ;
#323 = ORIENTED_EDGE ( 'NONE', *, *, #316, .T. ) ;
#324 = PERSON ( 'UNSPECIFIED', 'UNSPECIFIED', 'UNSPECIFIED', ('UNSPECIFIED'), ('UNSPECIFIED'), ('UNSPECIFIED') ) ;
#325 = EDGE_LOOP ( 'NONE', ( #217, #119 ) ) ;
#326 = ORIENTED_EDGE ( 'NONE', *, *, #185, .F. ) ;
#327 = APPROVAL ( #41, 'UNSPECIFIED' ) ;
#328 = PERSON_AND_ORGANIZATION ( #324, #303 ) ;
#329 = DIRECTION ( 'NONE',  ( -1.000000000000000000, -0.000000000000000000, -0.000000000000000000 ) ) ;
#330 = FACE_OUTER_BOUND ( 'NONE', #325, .T. ) ;
#331 = EDGE_CURVE ( 'NONE', #139, #140, #308, .T. ) ;
#332 = DIRECTION ( 'NONE',  ( -0.000000000000000000, 0.000000000000000000, 1.000000000000000000 ) ) ;
#333 = DIRECTION ( 'NONE',  ( 0.000000000000000000, 0.000000000000000000, 1.000000000000000000 ) ) ;
#334 = LOCAL_TIME ( 9, 26, 42.00000000000000000, #306 ) ;
#335 = DIRECTION ( 'NONE',  ( -1.000000000000000000, -0.000000000000000000, -0.000000000000000000 ) ) ;
ENDSEC;
END-ISO-10303-21;
